Cách Đọc Tab Guitar Đơn Giản Và Chính Xác Nhất!

Print Friendly, PDF & Email

[a*1]

Khi còn đi học, mỗi khi học nhạc, tôi đều sợ hãi khi đọc nốt nhạc và đến bây giờ khi nhìn lại những đứa trẻ đang nằm xếp hàng, tôi vẫn không hiểu gì cả. Nòng nọc có thể là cách viết nhạc hay nhất, nhưng không phải ai cũng có thể dễ dàng nắm bắt được, và càng khó hơn khi bạn vừa nhìn bản nhạc vừa chơi guitar.

Chính vì vậy bảng chữ (gọi tắt là tab) ra đời với mục đích chia sẻ cách chơi guitar một cách đơn giản và dễ hiểu nhất! Khi các tab ngày càng trở nên phổ biến trên internet, đọc theo tab là một kiến ​​thức cơ bản mọi nghệ sĩ guitar ngày nay đều phải biết. Nếu có cơ hội nghiên cứu các sách giáo khoa chính thống của nước ngoài, bạn sẽ thấy ngày càng nhiều giáo trình hướng dẫn người học đọc các tab.

Nói ngắn gọn: Bạn có thể không biết đọc nhạc nhưng ít nhất bạn phải biết cách đọc các tab guitar!

tab guitar

1. Cách đọc tab guitar cơ bản

Thoạt nhìn, tab có vẻ khá giống với bản nhạc, nhưng điểm chung duy nhất giữa tab và bản nhạc là đọc từ trái sang phải, còn lại thì hoàn toàn khác nhau!

Tab guitar bình thường sẽ có 6 dòng, mỗi dòng sẽ tượng trưng cho 1 dây đàn. Dòng dưới cùng sẽ hiển thị chuỗi dày nhất, vì vậy theo đúng thứ tự, dòng trên cùng sẽ là dây mỏng nhất. Chỉ cần nhớ rằng dòng dưới cùng là chuỗi thấp nhất và trên cùng là chuỗi cao nhất.

E----------------------------||(Dây mỏng nhất)
B----------------------------||
G----------------------------||
D----------------------------||
A----------------------------||
E----------------------------||(Dây dày nhất)

Không giống như âm nhạc, thay vì sử dụng bích và nòng nọc, tab này sử dụng các con số để cho bạn biết vị trí đặt ngón tay của bạn trên guitar. Nhìn vào dây chúng ta biết phải đặt ngón tay vào dây nào, sau đó nhìn vào số lượng chúng ta sẽ biết được ngăn nào của dây mà mình cần đặt ngón tay vào.

Ví dụ 1: Trong ví dụ này chúng ta thấy phải gõ 1 phím 3 trước sau đó thả dây 2 rồi quay lại dây 1, đánh số 1 tương đương với 3 nốt GBF. Lưu ý số 0 nghĩa là gõ chuỗi mở ngoại tuyến.

E----3-------1----------------------------------------------------
B--------0--------------------------------------------------------
G-----------------------------------------------------------------
D-----------------------------------------------------------------
A-----------------------------------------------------------------
E-----------------------------------------------------------------

Ví dụ 2: Nếu bạn đang giữ bàn phím, hãy thử nhập nội dung sau và đoán nó là gì (cuộn xuống dưới cùng để xem câu trả lời):

E-----------------------------------0-----------------------------
B----------0-----3--2---------0--------3--------------------------
G----2--2-----2---------2--2-----2--------------------------------
D-----------------------------------------------------------------
A-----------------------------------------------------------------
E-----------------------------------------------------------------

Nếu bạn đọc bản nhạc, bạn sẽ biết ngay bài hát này là gì vì bạn biết mỗi nốt nhạc phải chơi trong bao lâu để phát ra âm thanh (độ dài) từ đó bạn có thể cảm nhận được nhịp điệu của bài hát, nhưng tab chỉ cho chúng ta biết vị trí của bài hát. nhấp chuột (cao độ), không phải thông tin về cao độ. Đây là cái dở của tab, nhưng nếu bạn đã nghe bài hát đó hoặc có clip người đánh bài đó theo tab này bạn có thể luyện tập cực nhanh.

Ghi chú: Trong trường hợp bạn thấy nhiều số xuất hiện thẳng hàng, bạn sẽ phải gõ các nốt đó cùng một lúc, hoặc đó là một hợp âm.

Cách bấm hợp âm Đô Trưởng
E----0-----------------------------------------------------
B----1-----------------------------------------------------
G----0-----------------------------------------------------
D----2-----------------------------------------------------
A----3-----------------------------------------------------
E----0-----------------------------------------------------
Đôi khi bạn sẽ thấy một số clip hướng dẫn trên mạng sẽ chỉ cách bấm hợp âm bằng cách đọc tab như vầy:
Đô Trưởng - 032010
Rê Thứ - 000231
...
Intro bài River Flows In You có rất nhiều chỗ phải đánh 2 dây cùng lúc
e ||--3--2--3--2-|-3-----3-----|------3--2--3--2-|-3-----3------|
B ||--------3----|----3-----1~-|---0--------3----|----3-----1~--|
G ||-----0-----0-|----0-----0~-|-0-------0-----0-|----0-----0~--|
D ||--2----------|-------------|------2----------|--------------|
A ||-------------|-3-----------|-----------------|-3------------|
E ||-------------|-------------|-----------------|--------------|

Bạn nào mới học guitar thì chỉ cần xem đến đây là đủ vì đây là thời gian làm bài cơ bản nhiều rồi! Nhưng nếu bạn định luyện tập theo kiểu ngón tay, thì bạn nên tiếp tục phần dưới đây.

2. Đọc tab guitar nâng cao (hữu ích cho những người thực hành kiểu ngón tay)

Khi chơi guitar lâu, bạn sẽ khám phá ra một số kỹ thuật phức tạp với phong cách riêng biệt, vì vậy chơi lâu hơn bạn sẽ gặp một số ký hiệu lạ, giúp bạn chơi chính xác và đúng cách. bài hát solo / chỉnh sửa.

Nếu bạn chưa biết các kỹ thuật trong bài viết cách thực hiện thì hãy nhờ Google lên Youtube, Guitar Station sẽ cố gắng cập nhật phong cách của tất cả các kỹ thuật này trong tương lai.

Hammer On – h

Cách đánh Hammer On: https://www.youtube.com/watch?v=OGgp0uUNG1I

E--------0------------------------------------------------
B--------1--1h3-------------------------------------------
G---------------------------------------------------------
D---------------------------------------------------------
A---------------------------------------------------------
E---------------------------------------------------------
Đánh dây B phim 1 xong dung ngón tay nhấn đè lên ngăn 3 để tạo hiệu ứng Hammer On

Pull Offs – p

Cách đánh Pull Offs: https://www.youtube.com/watch?v=cdo1H7FVI84
(Vì hammer on và pull off ngược nhau nên đôi khi một số tab sẽ sử dụng ký hiệu chung ^, chúng ta sẽ hiểu rằng hammer on hoặc pull off phụ thuộc vào số ở hai bên của ký hiệu ^)

Ví dụ:

Số trước ít hơn số sau: 7 ^ 9 = 7h9 vì đánh phím 7 phải Búa Bật.
Số trước lớn hơn số sau: 9 ^ 7 = 9p7 vì gõ từ 9 xuống phải là Pull Offs

E--------0-------5^3--------------------------------------
B--------1--3p1-------------------------------------------
G---------------------------------------------------------
D---------------------------------------------------------
A---------------------------------------------------------
E---------------------------------------------------------
Trong trường hợp này chúng ta hiểu 3p1 và 5^3 đều là Pull Offs.

Thử nghiệm – p

Khi bạn nhìn thấy một biểu tượng tr ở trên hai con số, đó là biểu tượng Trills.

             tr~~~~    
E------------7--(9)------------------------------------------
B------7---------------------------------------------
G---7-----7-------------------------------------------------
D---------------------------------------------------------
A---------------------------------------------------------
E---------------------------------------------------------
Đánh ngăn 7 xong sau đó Hammer On nhanh lên ngăn 9 rồi Pull Offs ngay ra. Nói chung Hammer On sau đó Pull Offs thì gọi là Trills!

Uốn cong dây (còn được gọi là véo) – b

E-------------------5-----7b8------------------------------
B---------7-----------------------------------------------
G-----7-------7---------------------------------------------
D---------------------------------------------------------
A---------------------------------------------------------
E---------------------------------------------------------
7b8 nghĩa là bend ở ngăn 7 lên cao độ ngăn 8 trên dây E (Dây 1).

Phát hành – thả dây sau khi uốn cong – r

E------------------------7b8r7----------------------------
B---------------------------------------------------------
G---------------------------------------------------------
D---------------------------------------------------------
A---------------------------------------------------------
E---------------------------------------------------------
7b8r7 nghĩa là cũng bend lên cao độ ngăn 8 xong nhả về 7 bình thường trên dây E (Dây 1).

LegatoSlide – vuốt chuỗi legato – “s” hoặc “/”

Cách chơi Legato Slide: https://www.youtube.com/watch?v=QgKk0eV-E8c

E------------------------7s9------------------------------
B--------------------------------------------97----------
G---------------------------------------------------------
D---------------------------------------------------------
A---------------------------------------------------------
E---------------------------------------------------------
Trong một số tab sẽ ký hiệu là "/" với trường hơp vuốt lên như 7/9 hoặc"" là vuốt về ví dụ như 97
Legato là đánh xong rồi vuốt

Shift slide – S

Một loại hành trình chuỗi khác là trượt shift, nghĩa là vuốt ngay sau khi chuỗi được đánh. Để phân biệt giữa Legato và Shift, vui lòng xem clip ví dụ sau:

Cách nhập Shift slide: https://www.youtube.com/watch?v=OWhziAenUeU

E------------------------7S9------------------------------
B--------------7-------------------------------------------
G-----6----------------------------------------------------
D-----6----------------------------------------------------
A---------------------------------------------------------
E---------------------------------------------------------
Vừa đánh vừa vuốt từ ngăn 7 lên ngăn 9

Vibrato – chuỗi rung – ký hiệu “v” hoặc “~”

Cách đánh rung: https://www.youtube.com/watch?v=MY9aTs1YpT4

E------------------------5v-------------5~----------------
B-------7--------------------------------------------------
G--------------5-------------------------------------------
D---------------------------------------------------------
A---0------------------------------------------------------
E---------------------------------------------------------
Khi thấy ký hiệu "v" hoặc "~" thì bạn bend nốt đó lên xuống liên tục là vibrato, xem đường link phia trên để hiểu rõ hơn

Tắt tiếng – Dừng chuỗi để tắt tiếng – x

Đặt vào dây lại đánh hoàn toàn không có tiếng

E----5---x--------------------------------------------------
B----5---x--------------------------------------------------
G----6---x--------------------------------------------------
D----8---x--------------------------------------------------
A----7---x--------------------------------------------------
E----5---x--------------------------------------------------

Palm Mute – PM

Khác với Mute, Palm Mute vẫn phát ra âm thanh nhưng dùng mu bàn tay phải ấn vào ngựa để hạn chế độ rung của dây. Âm thanh sẽ sạch hơn, không bị rè như bình thường.

                    PM---------- |
E---------5---------3-----------------------------------
B------------7------------------------------------------
G-------------------------------------------------------
D-------------------------------------------------------
A------0--------0---------------------------------------
E---0---------------------------------------------------

Hài hòa – “<>“

E------------------------<7>-------------<12>-------------
B----------------------------------------<12>-------------
G----------------------------------------<12>-------------
D---------------------------------------------------------
A---------------------------------------------------------
E---------------------------------------------------------

Ngoài ra còn có nhiều ký hiệu khác, nhưng những ký hiệu này thường gặp khi chơi guitar. Đối với guitar điện sẽ có nhiều ký hiệu hơn, thậm chí một số tab sẽ sử dụng ký hiệu riêng cho đơn giản nhất nhưng thường các tab này sẽ có ghi chú nên bạn yên tâm.

Cách đọc tab guitar nói chung rất đơn giản nhưng bạn cũng cần luyện tập thường xuyên để đọc tab quen hơn, bên cạnh đó, rất ít tab có thể hiện vị trí đặt tay nên bạn cần biết bản nhạc mình chơi có cấu tạo như thế nào, thiết kế ra sao. hợp âm?

Chúc các bạn làm bài thành công!

[a*2]

You may also like...

Leave a Reply

Your email address will not be published. Required fields are marked *